Number of 666

December 14, 2010

YUI – Your Heaven Chords & Tabs

Filed under: Jepang, YUI — Tags: , , , — adiprayit @ 9:20 am
YUI - Your Heaven

***Capo at 1st fret

Asus2 - x02200
Dsus2 - xx0230 or x57755

Intro:
Asus2 E F#m7 Dsus2 (x2)

Verse:
Asus2 E F#m7 Dsus2 (x2)

Pre-Chorus:
Bm Dsus2 (x2)

Chorus:
Asus2 E F#m7 Dsus2 (x4)

repeat Verse

repeat Pre-Chorus

Chorus 2:
Asus2 E F#m7 Dsus2 (x2)

Bridge:
Bm C#m Dsus2 (x2)

repeat Chorus

Outro:
Asus2 E F#m7 Dsus2 (x2)
Asus2

Intro Plucking:
 Asus2       E           F#m7        Dsus2
-------------------------------------------0----------
-------0--------------0----------------3------3-------
---2------2----1---2-------2---4--2------2------------
-----2-----------2-----------2-------0----------------
-0----------------------------------------------------
-------------0-----------2----------------------------

 Asus2       E           F#m7        Dsus2
-------------------------------------0----------------
-------0--------------0--------------3----------------
---2------2----1---2-------2---4--2--2----------------
-----2-----------2-----------2-------0----------------
-0----------------------------------------------------
-------------0-----------2----------------------------

Solo (using slides/bottleneck):
**Fret number as if capo not on. Kind of confusing to shift.
------------------------------------------------------
-/16-16-15\-/11---/13\11-13--13/15--13-15-15/16-------
------------------------------------------------------
------------------------------------------------------
------------------------------------------------------
------------------------------------------------------

-----------11-----------------------------------------
------8/11--------------------------------------------
----8-------------------------------------------------
-/8---------------------------------------------------
------------------------------------------------------
------------------------------------------------------

Transcribed by
tsunvun86 @ YUI-Lover Forum & Fansite

Leave a Comment »

No comments yet.

RSS feed for comments on this post. TrackBack URI

Leave a Reply

Fill in your details below or click an icon to log in:

WordPress.com Logo

You are commenting using your WordPress.com account. Log Out / Change )

Twitter picture

You are commenting using your Twitter account. Log Out / Change )

Facebook photo

You are commenting using your Facebook account. Log Out / Change )

Google+ photo

You are commenting using your Google+ account. Log Out / Change )

Connecting to %s

Create a free website or blog at WordPress.com.

%d bloggers like this: